ISO-10303-21;
HEADER;
FILE_DESCRIPTION (( 'STEP AP203' ),
    '1' );
FILE_NAME ('Q-AZHWP-12.7-266-M.STEP',
    '2020-12-22T09:06:47',
    ( '' ),
    ( '' ),
    'SwSTEP 2.0',
    'SolidWorks 2020',
    '' );
FILE_SCHEMA (( 'CONFIG_CONTROL_DESIGN' ));
ENDSEC;

DATA;
#1 = VERTEX_POINT ( 'NONE', #88 ) ;
#2 = APPLICATION_CONTEXT ( 'configuration controlled 3d designs of mechanical parts and assemblies' ) ;
#3 = EDGE_CURVE ( 'NONE', #282, #284, #302, .T. ) ;
#4 = ORIENTED_EDGE ( 'NONE', *, *, #234, .T. ) ;
#5 = COORDINATED_UNIVERSAL_TIME_OFFSET ( 8, 0, .AHEAD. ) ;
#6 = EDGE_LOOP ( 'NONE', ( #61, #319 ) ) ;
#7 = VERTEX_POINT ( 'NONE', #265 ) ;
#8 = VECTOR ( 'NONE', #63, 1000.000000000000000 ) ;
#9 = COORDINATED_UNIVERSAL_TIME_OFFSET ( 8, 0, .AHEAD. ) ;
#10 = DIRECTION ( 'NONE',  ( -1.000000000000000000, -0.000000000000000000, -0.000000000000000000 ) ) ;
#11 = APPROVAL_PERSON_ORGANIZATION ( #285, #112, #74 ) ;
#12 = PERSON_AND_ORGANIZATION ( #283, #143 ) ;
#13 = LINE ( 'NONE', #227, #287 ) ;
#14 = CIRCLE ( 'NONE', #59, 6.349999999999999645 ) ;
#15 = CIRCLE ( 'NONE', #20, 6.349999999999999645 ) ;
#16 = PERSON_AND_ORGANIZATION ( #283, #143 ) ;
#17 = CYLINDRICAL_SURFACE ( 'NONE', #311, 6.349999999999999645 ) ;
#18 = DIRECTION ( 'NONE',  ( 0.000000000000000000, 0.000000000000000000, 1.000000000000000000 ) ) ;
#19 = DIRECTION ( 'NONE',  ( 0.000000000000000000, 0.000000000000000000, 1.000000000000000000 ) ) ;
#20 = AXIS2_PLACEMENT_3D ( 'NONE', #229, #275, #331 ) ;
#21 = ORIENTED_EDGE ( 'NONE', *, *, #153, .T. ) ;
#22 = DIRECTION ( 'NONE',  ( -1.000000000000000000, -0.000000000000000000, -0.000000000000000000 ) ) ;
#23 = CARTESIAN_POINT ( 'NONE',  ( 3.000000000000000888, 0.000000000000000000, 6.349999999999999645 ) ) ;
#24 = EDGE_CURVE ( 'NONE', #258, #56, #14, .T. ) ;
#25 = DIRECTION ( 'NONE',  ( -0.000000000000000000, 0.000000000000000000, 1.000000000000000000 ) ) ;
#26 = LINE ( 'NONE', #177, #69 ) ;
#27 = PERSON_AND_ORGANIZATION ( #283, #143 ) ;
#28 = ORIENTED_EDGE ( 'NONE', *, *, #300, .T. ) ;
#29 = MECHANICAL_CONTEXT ( 'NONE', #2, 'mechanical' ) ;
#30 = ORIENTED_EDGE ( 'NONE', *, *, #304, .T. ) ;
#31 = APPROVAL_PERSON_ORGANIZATION ( #16, #103, #118 ) ;
#32 = ADVANCED_FACE ( 'NONE', ( #323 ), #196, .F. ) ;
#33 = LINE ( 'NONE', #135, #53 ) ;
#34 = ORIENTED_EDGE ( 'NONE', *, *, #234, .F. ) ;
#35 = DIRECTION ( 'NONE',  ( 1.000000000000000000, 0.000000000000000000, 0.000000000000000000 ) ) ;
#36 = CARTESIAN_POINT ( 'NONE',  ( -3.000000000000000000, 0.000000000000000000, 12.69999999999999929 ) ) ;
#37 = APPROVAL_DATE_TIME ( #169, #103 ) ;
#38 = DIRECTION ( 'NONE',  ( 0.000000000000000000, 0.000000000000000000, -1.000000000000000000 ) ) ;
#39 = CARTESIAN_POINT ( 'NONE',  ( -3.000000000000000000, 0.000000000000000000, 0.000000000000000000 ) ) ;
#40 = APPROVAL ( #297, 'UNSPECIFIED' ) ;
#41 = AXIS2_PLACEMENT_3D ( 'NONE', #158, #281, #35 ) ;
#42 = LINE ( 'NONE', #267, #199 ) ;
#43 = DIRECTION ( 'NONE',  ( -1.000000000000000000, -0.000000000000000000, -0.000000000000000000 ) ) ;
#44 = UNCERTAINTY_MEASURE_WITH_UNIT (LENGTH_MEASURE( 1.000000000000000082E-05 ), #129, 'distance_accuracy_value', 'NONE');
#45 = EDGE_CURVE ( 'NONE', #56, #219, #13, .T. ) ;
#46 = DIRECTION ( 'NONE',  ( 0.000000000000000000, 0.000000000000000000, 1.000000000000000000 ) ) ;
#47 =( GEOMETRIC_REPRESENTATION_CONTEXT ( 3 ) GLOBAL_UNCERTAINTY_ASSIGNED_CONTEXT ( ( #44 ) ) GLOBAL_UNIT_ASSIGNED_CONTEXT ( ( #129, #280, #184 ) ) REPRESENTATION_CONTEXT ( 'NONE', 'WORKASPACE' ) );
#48 = ORIENTED_EDGE ( 'NONE', *, *, #153, .F. ) ;
#49 = CARTESIAN_POINT ( 'NONE',  ( 3.000000000000000888, 0.000000000000000000, 0.000000000000000000 ) ) ;
#50 = CARTESIAN_POINT ( 'NONE',  ( -2.999999999999999556, 0.000000000000000000, 6.349999999999999645 ) ) ;
#51 = FACE_OUTER_BOUND ( 'NONE', #6, .T. ) ;
#52 = MANIFOLD_SOLID_BREP ( 'Ðý×', #309 ) ;
#53 = VECTOR ( 'NONE', #233, 1000.000000000000000 ) ;
#54 = CARTESIAN_POINT ( 'NONE',  ( 3.000000000000000000, 0.000000000000000000, 0.000000000000000000 ) ) ;
#55 = COORDINATED_UNIVERSAL_TIME_OFFSET ( 8, 0, .AHEAD. ) ;
#56 = VERTEX_POINT ( 'NONE', #140 ) ;
#57 = DIRECTION ( 'NONE',  ( -1.000000000000000000, -0.000000000000000000, -0.000000000000000000 ) ) ;
#58 = VECTOR ( 'NONE', #257, 1000.000000000000000 ) ;
#59 = AXIS2_PLACEMENT_3D ( 'NONE', #263, #220, #325 ) ;
#60 = CALENDAR_DATE ( 2020, 22, 12 ) ;
#61 = ORIENTED_EDGE ( 'NONE', *, *, #289, .F. ) ;
#62 = DIRECTION ( 'NONE',  ( 0.000000000000000000, 0.000000000000000000, -1.000000000000000000 ) ) ;
#63 = DIRECTION ( 'NONE',  ( -1.000000000000000000, -0.000000000000000000, -0.000000000000000000 ) ) ;
#64 = DATE_AND_TIME ( #295, #215 ) ;
#65 = DIRECTION ( 'NONE',  ( 0.000000000000000000, 0.000000000000000000, 1.000000000000000000 ) ) ;
#66 = ADVANCED_FACE ( 'NONE', ( #298, #116 ), #172, .F. ) ;
#67 = DIRECTION ( 'NONE',  ( 0.000000000000000000, 0.000000000000000000, 1.000000000000000000 ) ) ;
#68 = DIRECTION ( 'NONE',  ( 0.000000000000000000, 0.000000000000000000, 1.000000000000000000 ) ) ;
#69 = VECTOR ( 'NONE', #128, 1000.000000000000000 ) ;
#70 = DIRECTION ( 'NONE',  ( 0.000000000000000000, 0.000000000000000000, -1.000000000000000000 ) ) ;
#71 = ORIENTED_EDGE ( 'NONE', *, *, #294, .T. ) ;
#72 = FACE_OUTER_BOUND ( 'NONE', #274, .T. ) ;
#73 = AXIS2_PLACEMENT_3D ( 'NONE', #125, #180, #70 ) ;
#74 = APPROVAL_ROLE ( '' ) ;
#75 = EDGE_CURVE ( 'NONE', #106, #7, #187, .T. ) ;
#76 = DIRECTION ( 'NONE',  ( 0.000000000000000000, 0.000000000000000000, 1.000000000000000000 ) ) ;
#77 = ORIENTED_EDGE ( 'NONE', *, *, #315, .F. ) ;
#78 = APPLICATION_PROTOCOL_DEFINITION ( 'international standard', 'config_control_design', 1994, #2 ) ;
#79 = ORIENTED_EDGE ( 'NONE', *, *, #24, .F. ) ;
#80 = EDGE_CURVE ( 'NONE', #160, #282, #268, .T. ) ;
#81 = ORIENTED_EDGE ( 'NONE', *, *, #24, .T. ) ;
#82 = APPROVAL_DATE_TIME ( #145, #40 ) ;
#83 = EDGE_LOOP ( 'NONE', ( #211, #71, #134, #313 ) ) ;
#84 = LOCAL_TIME ( 17, 6, 47.00000000000000000, #5 ) ;
#85 = ADVANCED_BREP_SHAPE_REPRESENTATION ( 'Q-AZHWP-12.7-266-M', ( #52, #41 ), #47 ) ;
#86 = APPROVAL_ROLE ( '' ) ;
#87 = CARTESIAN_POINT ( 'NONE',  ( -1.614212418857619014, 0.000000000000000000, 0.000000000000000000 ) ) ;
#88 = CARTESIAN_POINT ( 'NONE',  ( 3.000000000000000888, 7.776507174585692163E-16, -6.349999999999999645 ) ) ;
#89 = DIRECTION ( 'NONE',  ( -1.000000000000000000, -0.000000000000000000, -0.000000000000000000 ) ) ;
#90 = DESIGN_CONTEXT ( 'detailed design', #277, 'design' ) ;
#91 = FACE_OUTER_BOUND ( 'NONE', #166, .T. ) ;
#92 = EDGE_CURVE ( 'NONE', #1, #106, #42, .T. ) ;
#93 = DIRECTION ( 'NONE',  ( -1.000000000000000000, -0.000000000000000000, -0.000000000000000000 ) ) ;
#94 = PRODUCT_DEFINITION_FORMATION_WITH_SPECIFIED_SOURCE ( 'ANY', '', #124, .NOT_KNOWN. ) ;
#95 = CARTESIAN_POINT ( 'NONE',  ( -2.999999999999999556, 7.776507174585692163E-16, -6.349999999999999645 ) ) ;
#96 = ADVANCED_FACE ( 'NONE', ( #139 ), #147, .F. ) ;
#97 = DIRECTION ( 'NONE',  ( -0.000000000000000000, 0.000000000000000000, 1.000000000000000000 ) ) ;
#98 = DIRECTION ( 'NONE',  ( 0.000000000000000000, 0.000000000000000000, 1.000000000000000000 ) ) ;
#99 = ADVANCED_FACE ( 'NONE', ( #91 ), #17, .F. ) ;
#100 = CARTESIAN_POINT ( 'NONE',  ( -1.614212418857619014, 1.555301434917138433E-15, -12.69999999999999929 ) ) ;
#101 = LOCAL_TIME ( 17, 6, 47.00000000000000000, #55 ) ;
#102 = ORIENTED_EDGE ( 'NONE', *, *, #226, .T. ) ;
#103 = APPROVAL ( #327, 'UNSPECIFIED' ) ;
#104 = ORIENTED_EDGE ( 'NONE', *, *, #45, .T. ) ;
#105 = DIRECTION ( 'NONE',  ( -1.000000000000000000, -0.000000000000000000, -0.000000000000000000 ) ) ;
#106 = VERTEX_POINT ( 'NONE', #120 ) ;
#107 = CC_DESIGN_SECURITY_CLASSIFICATION ( #335, ( #94 ) ) ;
#108 = AXIS2_PLACEMENT_3D ( 'NONE', #301, #247, #191 ) ;
#109 = CALENDAR_DATE ( 2020, 22, 12 ) ;
#110 = ORIENTED_EDGE ( 'NONE', *, *, #113, .T. ) ;
#111 = EDGE_LOOP ( 'NONE', ( #162, #321 ) ) ;
#112 = APPROVAL ( #185, 'UNSPECIFIED' ) ;
#113 = EDGE_CURVE ( 'NONE', #284, #282, #198, .T. ) ;
#114 = LOCAL_TIME ( 17, 6, 47.00000000000000000, #9 ) ;
#115 = PERSON_AND_ORGANIZATION_ROLE ( 'classification_officer' ) ;
#116 = FACE_OUTER_BOUND ( 'NONE', #317, .T. ) ;
#117 = AXIS2_PLACEMENT_3D ( 'NONE', #87, #142, #65 ) ;
#118 = APPROVAL_ROLE ( '' ) ;
#119 = CARTESIAN_POINT ( 'NONE',  ( -1.614212418857619014, 0.000000000000000000, 0.000000000000000000 ) ) ;
#120 = CARTESIAN_POINT ( 'NONE',  ( 1.500000000000000888, 7.776507174585692163E-16, -6.349999999999999645 ) ) ;
#121 = CARTESIAN_POINT ( 'NONE',  ( -1.614212418857619014, 0.000000000000000000, 0.000000000000000000 ) ) ;
#122 = AXIS2_PLACEMENT_3D ( 'NONE', #150, #250, #25 ) ;
#123 = ORIENTED_EDGE ( 'NONE', *, *, #113, .F. ) ;
#124 = PRODUCT ( 'Q-AZHWP-12.7-266-M', 'Q-AZHWP-12.7-266-M', '', ( #29 ) ) ;
#125 = CARTESIAN_POINT ( 'NONE',  ( -1.500000000000000444, 0.000000000000000000, 0.000000000000000000 ) ) ;
#126 = DIRECTION ( 'NONE',  ( -1.000000000000000000, -0.000000000000000000, -0.000000000000000000 ) ) ;
#127 = AXIS2_PLACEMENT_3D ( 'NONE', #200, #296, #67 ) ;
#128 = DIRECTION ( 'NONE',  ( -1.000000000000000000, -0.000000000000000000, -0.000000000000000000 ) ) ;
#129 =( LENGTH_UNIT ( ) NAMED_UNIT ( * ) SI_UNIT ( .MILLI., .METRE. ) );
#130 = EDGE_LOOP ( 'NONE', ( #260, #190, #255, #238 ) ) ;
#131 = PERSON_AND_ORGANIZATION ( #283, #143 ) ;
#132 = VERTEX_POINT ( 'NONE', #225 ) ;
#133 = DIRECTION ( 'NONE',  ( -1.000000000000000000, -0.000000000000000000, -0.000000000000000000 ) ) ;
#134 = ORIENTED_EDGE ( 'NONE', *, *, #3, .F. ) ;
#135 = CARTESIAN_POINT ( 'NONE',  ( -1.614212418857619014, 0.000000000000000000, 6.349999999999999645 ) ) ;
#136 = EDGE_LOOP ( 'NONE', ( #21, #4, #316, #213 ) ) ;
#137 = AXIS2_PLACEMENT_3D ( 'NONE', #155, #126, #249 ) ;
#138 = PERSON_AND_ORGANIZATION_ROLE ( 'design_supplier' ) ;
#139 = FACE_OUTER_BOUND ( 'NONE', #130, .T. ) ;
#140 = CARTESIAN_POINT ( 'NONE',  ( -1.500000000000000444, 0.000000000000000000, 6.349999999999999645 ) ) ;
#141 = CALENDAR_DATE ( 2020, 22, 12 ) ;
#142 = DIRECTION ( 'NONE',  ( -1.000000000000000000, -0.000000000000000000, -0.000000000000000000 ) ) ;
#143 = ORGANIZATION ( 'UNSPECIFIED', 'UNSPECIFIED', '' ) ;
#144 = EDGE_CURVE ( 'NONE', #209, #219, #252, .T. ) ;
#145 = DATE_AND_TIME ( #222, #114 ) ;
#146 = AXIS2_PLACEMENT_3D ( 'NONE', #170, #270, #38 ) ;
#147 = CYLINDRICAL_SURFACE ( 'NONE', #117, 6.349999999999999645 ) ;
#148 = ADVANCED_FACE ( 'NONE', ( #154 ), #176, .F. ) ;
#149 = DIRECTION ( 'NONE',  ( -1.000000000000000000, -0.000000000000000000, -0.000000000000000000 ) ) ;
#150 = CARTESIAN_POINT ( 'NONE',  ( 1.500000000000000444, 6.349999999999999645, 0.000000000000000000 ) ) ;
#151 = AXIS2_PLACEMENT_3D ( 'NONE', #121, #93, #19 ) ;
#152 = DIRECTION ( 'NONE',  ( 0.000000000000000000, 0.000000000000000000, 1.000000000000000000 ) ) ;
#153 = EDGE_CURVE ( 'NONE', #56, #258, #164, .T. ) ;
#154 = FACE_OUTER_BOUND ( 'NONE', #253, .T. ) ;
#155 = CARTESIAN_POINT ( 'NONE',  ( -1.614212418857619014, 0.000000000000000000, 0.000000000000000000 ) ) ;
#156 = PERSON_AND_ORGANIZATION_ROLE ( 'design_owner' ) ;
#157 = ORIENTED_EDGE ( 'NONE', *, *, #294, .F. ) ;
#158 = CARTESIAN_POINT ( 'NONE',  ( 0.000000000000000000, 0.000000000000000000, 0.000000000000000000 ) ) ;
#159 = CC_DESIGN_PERSON_AND_ORGANIZATION_ASSIGNMENT ( #322, #115, ( #335 ) ) ;
#160 = VERTEX_POINT ( 'NONE', #271 ) ;
#161 = LINE ( 'NONE', #100, #58 ) ;
#162 = ORIENTED_EDGE ( 'NONE', *, *, #212, .T. ) ;
#163 = AXIS2_PLACEMENT_3D ( 'NONE', #246, #89, #168 ) ;
#164 = CIRCLE ( 'NONE', #73, 6.349999999999999645 ) ;
#165 = EDGE_LOOP ( 'NONE', ( #157, #30, #240, #123 ) ) ;
#166 = EDGE_LOOP ( 'NONE', ( #34, #81, #104, #102 ) ) ;
#167 = ADVANCED_FACE ( 'NONE', ( #51 ), #251, .F. ) ;
#168 = DIRECTION ( 'NONE',  ( 0.000000000000000000, 0.000000000000000000, 1.000000000000000000 ) ) ;
#169 = DATE_AND_TIME ( #109, #256 ) ;
#170 = CARTESIAN_POINT ( 'NONE',  ( -3.000000000000000000, 6.349999999999999645, 0.000000000000000000 ) ) ;
#171 = SHAPE_DEFINITION_REPRESENTATION ( #299, #85 ) ;
#172 = PLANE ( 'NONE',  #146 ) ;
#173 = APPROVAL_PERSON_ORGANIZATION ( #195, #40, #86 ) ;
#174 = COORDINATED_UNIVERSAL_TIME_OFFSET ( 8, 0, .AHEAD. ) ;
#175 = ORIENTED_EDGE ( 'NONE', *, *, #304, .F. ) ;
#176 = CYLINDRICAL_SURFACE ( 'NONE', #264, 6.349999999999999645 ) ;
#177 = CARTESIAN_POINT ( 'NONE',  ( -1.614212418857619014, 7.776507174585692163E-16, -6.349999999999999645 ) ) ;
#178 = CC_DESIGN_PERSON_AND_ORGANIZATION_ASSIGNMENT ( #27, #156, ( #124 ) ) ;
#179 = CC_DESIGN_APPROVAL ( #40, ( #94 ) ) ;
#180 = DIRECTION ( 'NONE',  ( 1.000000000000000000, 0.000000000000000000, 0.000000000000000000 ) ) ;
#181 = CARTESIAN_POINT ( 'NONE',  ( -1.614212418857619014, 0.000000000000000000, 0.000000000000000000 ) ) ;
#182 = AXIS2_PLACEMENT_3D ( 'NONE', #330, #272, #46 ) ;
#183 = VERTEX_POINT ( 'NONE', #23 ) ;
#184 =( NAMED_UNIT ( * ) SI_UNIT ( $, .STERADIAN. ) SOLID_ANGLE_UNIT ( ) );
#185 = APPROVAL_STATUS ( 'not_yet_approved' ) ;
#186 = CIRCLE ( 'NONE', #243, 12.69999999999999929 ) ;
#187 = CIRCLE ( 'NONE', #108, 6.349999999999999645 ) ;
#188 = DIRECTION ( 'NONE',  ( 0.000000000000000000, 0.000000000000000000, 1.000000000000000000 ) ) ;
#189 = ORIENTED_EDGE ( 'NONE', *, *, #212, .F. ) ;
#190 = ORIENTED_EDGE ( 'NONE', *, *, #92, .T. ) ;
#191 = DIRECTION ( 'NONE',  ( 0.000000000000000000, 0.000000000000000000, 1.000000000000000000 ) ) ;
#192 = PRODUCT_RELATED_PRODUCT_CATEGORY ( 'detail', '', ( #124 ) ) ;
#193 = EDGE_CURVE ( 'NONE', #1, #183, #15, .T. ) ;
#194 = DIRECTION ( 'NONE',  ( 0.000000000000000000, 0.000000000000000000, 1.000000000000000000 ) ) ;
#195 = PERSON_AND_ORGANIZATION ( #283, #143 ) ;
#196 = PLANE ( 'NONE',  #244 ) ;
#197 = DIRECTION ( 'NONE',  ( -1.000000000000000000, -0.000000000000000000, -0.000000000000000000 ) ) ;
#198 = CIRCLE ( 'NONE', #201, 12.69999999999999929 ) ;
#199 = VECTOR ( 'NONE', #10, 1000.000000000000000 ) ;
#200 = CARTESIAN_POINT ( 'NONE',  ( -2.999999999999999556, 0.000000000000000000, 0.000000000000000000 ) ) ;
#201 = AXIS2_PLACEMENT_3D ( 'NONE', #39, #149, #194 ) ;
#202 = PRODUCT_DEFINITION ( 'UNKNOWN', '', #94, #90 ) ;
#203 = PLANE ( 'NONE',  #329 ) ;
#204 = CARTESIAN_POINT ( 'NONE',  ( -2.999999999999999556, 0.000000000000000000, 0.000000000000000000 ) ) ;
#205 = CYLINDRICAL_SURFACE ( 'NONE', #137, 12.69999999999999929 ) ;
#206 = DIRECTION ( 'NONE',  ( -1.000000000000000000, -0.000000000000000000, -0.000000000000000000 ) ) ;
#207 = CARTESIAN_POINT ( 'NONE',  ( 1.500000000000000888, 0.000000000000000000, 0.000000000000000000 ) ) ;
#208 = AXIS2_PLACEMENT_3D ( 'NONE', #207, #57, #188 ) ;
#209 = VERTEX_POINT ( 'NONE', #95 ) ;
#210 = CC_DESIGN_PERSON_AND_ORGANIZATION_ASSIGNMENT ( #131, #239, ( #202 ) ) ;
#211 = ORIENTED_EDGE ( 'NONE', *, *, #315, .T. ) ;
#212 = EDGE_CURVE ( 'NONE', #183, #1, #235, .T. ) ;
#213 = ORIENTED_EDGE ( 'NONE', *, *, #45, .F. ) ;
#214 = CARTESIAN_POINT ( 'NONE',  ( 3.000000000000000000, 0.000000000000000000, 0.000000000000000000 ) ) ;
#215 = LOCAL_TIME ( 17, 6, 47.00000000000000000, #174 ) ;
#216 = EDGE_LOOP ( 'NONE', ( #291, #288 ) ) ;
#217 = ADVANCED_FACE ( 'NONE', ( #276 ), #205, .T. ) ;
#218 = PERSON_AND_ORGANIZATION_ROLE ( 'creator' ) ;
#219 = VERTEX_POINT ( 'NONE', #50 ) ;
#220 = DIRECTION ( 'NONE',  ( 1.000000000000000000, 0.000000000000000000, 0.000000000000000000 ) ) ;
#221 = CC_DESIGN_PERSON_AND_ORGANIZATION_ASSIGNMENT ( #12, #138, ( #94 ) ) ;
#222 = CALENDAR_DATE ( 2020, 22, 12 ) ;
#223 = AXIS2_PLACEMENT_3D ( 'NONE', #214, #133, #76 ) ;
#224 = COORDINATED_UNIVERSAL_TIME_OFFSET ( 8, 0, .AHEAD. ) ;
#225 = CARTESIAN_POINT ( 'NONE',  ( 3.000000000000000000, 1.555301434917138433E-15, -12.69999999999999929 ) ) ;
#226 = EDGE_CURVE ( 'NONE', #219, #209, #273, .T. ) ;
#227 = CARTESIAN_POINT ( 'NONE',  ( -1.614212418857619014, 0.000000000000000000, 6.349999999999999645 ) ) ;
#228 = FACE_OUTER_BOUND ( 'NONE', #83, .T. ) ;
#229 = CARTESIAN_POINT ( 'NONE',  ( 3.000000000000000888, 0.000000000000000000, 0.000000000000000000 ) ) ;
#230 = CARTESIAN_POINT ( 'NONE',  ( 3.000000000000000000, 12.69999999999999929, 0.000000000000000000 ) ) ;
#231 = ADVANCED_FACE ( 'NONE', ( #72, #306 ), #203, .F. ) ;
#232 = CARTESIAN_POINT ( 'NONE',  ( -1.500000000000000444, 7.776507174585692163E-16, -6.349999999999999645 ) ) ;
#233 = DIRECTION ( 'NONE',  ( -1.000000000000000000, -0.000000000000000000, -0.000000000000000000 ) ) ;
#234 = EDGE_CURVE ( 'NONE', #258, #209, #26, .T. ) ;
#235 = CIRCLE ( 'NONE', #279, 6.349999999999999645 ) ;
#236 = ORIENTED_EDGE ( 'NONE', *, *, #3, .T. ) ;
#237 = DIRECTION ( 'NONE',  ( 0.000000000000000000, 0.000000000000000000, 1.000000000000000000 ) ) ;
#238 = ORIENTED_EDGE ( 'NONE', *, *, #300, .F. ) ;
#239 = PERSON_AND_ORGANIZATION_ROLE ( 'creator' ) ;
#240 = ORIENTED_EDGE ( 'NONE', *, *, #80, .T. ) ;
#241 = ORIENTED_EDGE ( 'NONE', *, *, #92, .F. ) ;
#242 = SECURITY_CLASSIFICATION_LEVEL ( 'unclassified' ) ;
#243 = AXIS2_PLACEMENT_3D ( 'NONE', #54, #105, #237 ) ;
#244 = AXIS2_PLACEMENT_3D ( 'NONE', #328, #326, #62 ) ;
#245 = DATE_AND_TIME ( #141, #84 ) ;
#246 = CARTESIAN_POINT ( 'NONE',  ( -3.000000000000000000, 0.000000000000000000, 0.000000000000000000 ) ) ;
#247 = DIRECTION ( 'NONE',  ( -1.000000000000000000, -0.000000000000000000, -0.000000000000000000 ) ) ;
#248 = CYLINDRICAL_SURFACE ( 'NONE', #151, 6.349999999999999645 ) ;
#249 = DIRECTION ( 'NONE',  ( 0.000000000000000000, 0.000000000000000000, 1.000000000000000000 ) ) ;
#250 = DIRECTION ( 'NONE',  ( -1.000000000000000000, 0.000000000000000000, -0.000000000000000000 ) ) ;
#251 = PLANE ( 'NONE',  #122 ) ;
#252 = CIRCLE ( 'NONE', #127, 6.349999999999999645 ) ;
#253 = EDGE_LOOP ( 'NONE', ( #241, #189, #28, #286 ) ) ;
#254 = APPROVAL_DATE_TIME ( #259, #112 ) ;
#255 = ORIENTED_EDGE ( 'NONE', *, *, #75, .T. ) ;
#256 = LOCAL_TIME ( 17, 6, 47.00000000000000000, #224 ) ;
#257 = DIRECTION ( 'NONE',  ( -1.000000000000000000, -0.000000000000000000, -0.000000000000000000 ) ) ;
#258 = VERTEX_POINT ( 'NONE', #232 ) ;
#259 = DATE_AND_TIME ( #60, #101 ) ;
#260 = ORIENTED_EDGE ( 'NONE', *, *, #193, .F. ) ;
#261 = DATE_TIME_ROLE ( 'creation_date' ) ;
#262 = AXIS2_PLACEMENT_3D ( 'NONE', #204, #22, #98 ) ;
#263 = CARTESIAN_POINT ( 'NONE',  ( -1.500000000000000444, 0.000000000000000000, 0.000000000000000000 ) ) ;
#264 = AXIS2_PLACEMENT_3D ( 'NONE', #181, #278, #152 ) ;
#265 = CARTESIAN_POINT ( 'NONE',  ( 1.500000000000000888, 0.000000000000000000, 6.349999999999999645 ) ) ;
#266 = ADVANCED_FACE ( 'NONE', ( #303 ), #248, .F. ) ;
#267 = CARTESIAN_POINT ( 'NONE',  ( -1.614212418857619014, 7.776507174585692163E-16, -6.349999999999999645 ) ) ;
#268 = LINE ( 'NONE', #293, #8 ) ;
#269 = ADVANCED_FACE ( 'NONE', ( #228 ), #305, .T. ) ;
#270 = DIRECTION ( 'NONE',  ( 1.000000000000000000, 0.000000000000000000, 0.000000000000000000 ) ) ;
#271 = CARTESIAN_POINT ( 'NONE',  ( 3.000000000000000000, 0.000000000000000000, 12.69999999999999929 ) ) ;
#272 = DIRECTION ( 'NONE',  ( -1.000000000000000000, -0.000000000000000000, -0.000000000000000000 ) ) ;
#273 = CIRCLE ( 'NONE', #262, 6.349999999999999645 ) ;
#274 = EDGE_LOOP ( 'NONE', ( #77, #175 ) ) ;
#275 = DIRECTION ( 'NONE',  ( -1.000000000000000000, -0.000000000000000000, -0.000000000000000000 ) ) ;
#276 = FACE_OUTER_BOUND ( 'NONE', #165, .T. ) ;
#277 = APPLICATION_CONTEXT ( 'configuration controlled 3d designs of mechanical parts and assemblies' ) ;
#278 = DIRECTION ( 'NONE',  ( -1.000000000000000000, -0.000000000000000000, -0.000000000000000000 ) ) ;
#279 = AXIS2_PLACEMENT_3D ( 'NONE', #49, #206, #68 ) ;
#280 =( NAMED_UNIT ( * ) PLANE_ANGLE_UNIT ( ) SI_UNIT ( $, .RADIAN. ) );
#281 = DIRECTION ( 'NONE',  ( 0.000000000000000000, 0.000000000000000000, 1.000000000000000000 ) ) ;
#282 = VERTEX_POINT ( 'NONE', #36 ) ;
#283 = PERSON ( 'UNSPECIFIED', 'UNSPECIFIED', 'UNSPECIFIED', ('UNSPECIFIED'), ('UNSPECIFIED'), ('UNSPECIFIED') ) ;
#284 = VERTEX_POINT ( 'NONE', #333 ) ;
#285 = PERSON_AND_ORGANIZATION ( #283, #143 ) ;
#286 = ORIENTED_EDGE ( 'NONE', *, *, #289, .T. ) ;
#287 = VECTOR ( 'NONE', #197, 1000.000000000000000 ) ;
#288 = ORIENTED_EDGE ( 'NONE', *, *, #144, .F. ) ;
#289 = EDGE_CURVE ( 'NONE', #7, #106, #310, .T. ) ;
#290 = PERSON_AND_ORGANIZATION ( #283, #143 ) ;
#291 = ORIENTED_EDGE ( 'NONE', *, *, #226, .F. ) ;
#292 = CC_DESIGN_APPROVAL ( #112, ( #202 ) ) ;
#293 = CARTESIAN_POINT ( 'NONE',  ( -1.614212418857619014, 0.000000000000000000, 12.69999999999999929 ) ) ;
#294 = EDGE_CURVE ( 'NONE', #132, #284, #161, .T. ) ;
#295 = CALENDAR_DATE ( 2020, 22, 12 ) ;
#296 = DIRECTION ( 'NONE',  ( -1.000000000000000000, -0.000000000000000000, -0.000000000000000000 ) ) ;
#297 = APPROVAL_STATUS ( 'not_yet_approved' ) ;
#298 = FACE_BOUND ( 'NONE', #216, .T. ) ;
#299 = PRODUCT_DEFINITION_SHAPE ( 'NONE', 'NONE',  #202 ) ;
#300 = EDGE_CURVE ( 'NONE', #183, #7, #33, .T. ) ;
#301 = CARTESIAN_POINT ( 'NONE',  ( 1.500000000000000888, 0.000000000000000000, 0.000000000000000000 ) ) ;
#302 = CIRCLE ( 'NONE', #163, 12.69999999999999929 ) ;
#303 = FACE_OUTER_BOUND ( 'NONE', #136, .T. ) ;
#304 = EDGE_CURVE ( 'NONE', #132, #160, #324, .T. ) ;
#305 = CYLINDRICAL_SURFACE ( 'NONE', #182, 12.69999999999999929 ) ;
#306 = FACE_BOUND ( 'NONE', #111, .T. ) ;
#307 = CC_DESIGN_DATE_AND_TIME_ASSIGNMENT ( #245, #261, ( #202 ) ) ;
#308 = CC_DESIGN_APPROVAL ( #103, ( #335 ) ) ;
#309 = CLOSED_SHELL ( 'NONE', ( #269, #266, #96, #167, #148, #99, #66, #217, #231, #32 ) ) ;
#310 = CIRCLE ( 'NONE', #208, 6.349999999999999645 ) ;
#311 = AXIS2_PLACEMENT_3D ( 'NONE', #119, #43, #18 ) ;
#312 = APPLICATION_PROTOCOL_DEFINITION ( 'international standard', 'config_control_design', 1994, #277 ) ;
#313 = ORIENTED_EDGE ( 'NONE', *, *, #80, .F. ) ;
#314 = CC_DESIGN_DATE_AND_TIME_ASSIGNMENT ( #64, #320, ( #335 ) ) ;
#315 = EDGE_CURVE ( 'NONE', #160, #132, #186, .T. ) ;
#316 = ORIENTED_EDGE ( 'NONE', *, *, #144, .T. ) ;
#317 = EDGE_LOOP ( 'NONE', ( #236, #110 ) ) ;
#318 = CC_DESIGN_PERSON_AND_ORGANIZATION_ASSIGNMENT ( #290, #218, ( #94 ) ) ;
#319 = ORIENTED_EDGE ( 'NONE', *, *, #75, .F. ) ;
#320 = DATE_TIME_ROLE ( 'classification_date' ) ;
#321 = ORIENTED_EDGE ( 'NONE', *, *, #193, .T. ) ;
#322 = PERSON_AND_ORGANIZATION ( #283, #143 ) ;
#323 = FACE_OUTER_BOUND ( 'NONE', #334, .T. ) ;
#324 = CIRCLE ( 'NONE', #223, 12.69999999999999929 ) ;
#325 = DIRECTION ( 'NONE',  ( 0.000000000000000000, 0.000000000000000000, -1.000000000000000000 ) ) ;
#326 = DIRECTION ( 'NONE',  ( 1.000000000000000000, 0.000000000000000000, 0.000000000000000000 ) ) ;
#327 = APPROVAL_STATUS ( 'not_yet_approved' ) ;
#328 = CARTESIAN_POINT ( 'NONE',  ( -1.500000000000000444, 6.349999999999999645, 0.000000000000000000 ) ) ;
#329 = AXIS2_PLACEMENT_3D ( 'NONE', #230, #332, #97 ) ;
#330 = CARTESIAN_POINT ( 'NONE',  ( -1.614212418857619014, 0.000000000000000000, 0.000000000000000000 ) ) ;
#331 = DIRECTION ( 'NONE',  ( 0.000000000000000000, 0.000000000000000000, 1.000000000000000000 ) ) ;
#332 = DIRECTION ( 'NONE',  ( -1.000000000000000000, 0.000000000000000000, -0.000000000000000000 ) ) ;
#333 = CARTESIAN_POINT ( 'NONE',  ( -3.000000000000000000, 1.555301434917138433E-15, -12.69999999999999929 ) ) ;
#334 = EDGE_LOOP ( 'NONE', ( #48, #79 ) ) ;
#335 = SECURITY_CLASSIFICATION ( '', '', #242 ) ;
ENDSEC;
END-ISO-10303-21;
